Jump to content

Archived

This topic is now archived and is closed to further replies.

DTH

¡Tre! Tabs and Chords

Recommended Posts

I'm desperate to know how to play these awesome songs on guitar!

Share this post


Link to post
Share on other sites

i have the tab, including the solo for 99R.

Share this post


Link to post
Share on other sites

like i did for uno and dos i will try to tab every song of tré (guitar/drums) ;)

Share this post


Link to post
Share on other sites

Great ! 8th avenue Serenade is going To ne Good in acoustic

Share this post


Link to post
Share on other sites

almost done with Dirty Rotten Bastards

Share this post


Link to post
Share on other sites

my tab for DRB is under review right now at ultimate-guitar, but until then here it is!

http://imageshack.us...3/4514/drb1.jpg

http://imageshack.us...24/545/drb2.jpg

http://imageshack.us...0/9616/drb3.jpg

http://imageshack.us...3/1757/drb4.jpg

sorry this is the only way i can post it here until it get approved. it comes out too messed up when you paste it here.

edit

http://imageshack.us/f/17/8thave.jpg/ 8th ave

Share this post


Link to post
Share on other sites

Thanks for This !!! :) And Thanks For 8th ave

Share this post


Link to post
Share on other sites

Bass solo for DRB. I NEEEEEEEEEEEEEEEEERD IT

Share this post


Link to post
Share on other sites

I need Amanda, please!

Share this post


Link to post
Share on other sites

I need Amanda, please!

I'll do that one next

Share this post


Link to post
Share on other sites

Yes! Bass for DRB!

Ill let you know if I figure anything out to help you!

Share this post


Link to post
Share on other sites

Guitar solo for Dirty Rotten Bastards if anyone can find that out! I probably will find out by ear tomorrow, since I'm pretty good at that I guess! :D:lol:

Share this post


Link to post
Share on other sites

Brutal Love is very simple to learn, I've learned all of it by ear but shamefully I dont have time to transcribe it, sorry guys, If I get some free time...

Share this post


Link to post
Share on other sites

i got brutal love for the half...

the pattern at the beginning is:

---------------5--------

-------------6----6-----

----------6----------6---

------4-------------------

chords are:

verse

g# d# g# c# g# d# g#

chorus (bad luck)

c# g# d# g#

c# g# (g-f#) f g# d#

then i dont know all chord shifts... during the solo and the later chorus....

@ A_eulogy: can you write the down the missing chords here??

Share this post


Link to post
Share on other sites

i got brutal love for the half...

@ A_eulogy: can you write the down the missing chords here??

Sure, I'm writing the tab for the whole song at the moment, I'll post it when I'm done.

Share this post


Link to post
Share on other sites

Does anyone have the guitar solo for X-Kid?

Share this post


Link to post
Share on other sites

i got brutal love for the half...

the pattern at the beginning is:

---------------7--------

-------------6----6-----

----------6----------6---

------4-------------------

chords are:

verse

g# d# g# c# g# d# g#

chorus (bad luck)

c# g# d# g#

c# g# (g-f#) f g# d#

then i dont know all chord shifts... during the solo and the later chorus....

@ A_eulogy: can you write the down the missing chords here??

That G|-7 should be G|-5, the chords are just major barre chords, and you pick the notes in the same order as your tab.

Share this post


Link to post
Share on other sites

Can I get some Amanda or 99 Revolutions up in this bitch!?!

Share this post


Link to post
Share on other sites

Guys... Were talking about Green Day here =P Its just power chords and if you're not sure how to play something look up a cover on YouTube... Or if you're lucky, find a live performance to see exactly how they play it - I do that all the time.

Sorry to be the debbie downer =P

Share this post


Link to post
Share on other sites

Guys... Were talking about Green Day here =P Its just power chords and if you're not sure how to play something look up a cover on YouTube... Or if you're lucky, find a live performance to see exactly how they play it - I do that all the time.

Sorry to be the debbie downer =P

Or you can read the tabs that are being posted.

Share this post


Link to post
Share on other sites

I can play the solo of Dirty Rotten Bastards! I learnt it by ear in like 5 minutes :lol: But I don't think it's exactly right though...

I'm not good a posting tabs though...

E|--------------------|---------------|---------------------------|----------------------------------------------------------------------------|

B|11---11---11----|8----6---5---|11---11---11---------|(tap)-6h8h11p8p6h8h11p8p6h8h11p8p6h8h11p8p6h8|

G|13b-13b-13b--|10b-8b-7b--|13b-13b-15b-------|-----------------------------------------------------------------------------|

D|--------------------|----------------|-------------------------|-----------------------------------------------------------------------------|

A|--------------------|----------------|-------------------------|-----------------------------------------------------------------------------|

E|--------------------|----------------|---------------------13\|----------------------------------------------------------------------------|

E|(tap)-6h8h11p8p6h8h11p8p6h8h11p8p6h8h11p8p6h8-13~13~13~------|

B|-----------------------------------------------------------------------------------------------------|

G|-----------------------------------------------------------------------------------------------------|

D|-----------------------------------------------------------------------------------------------------|

A|-----------------------------------------------------------------------------------------------------|

E|-------------------------------------------------------------------------------------------------13\|

|P.M-----------------------|

E|(tap)-6h8h11p8p6h8h11p8p6h8h11p8p6h8h11p8p6h8--------------|--------------------------------------------------------------------------------------------|

B|-----------------------------------------------------------------------------13-11-9~|-------------------------------------------------------------------15-15----13~-------|

G|-----------------------------------------------------------------------------13---------|-------------------------------------------------------------------15-15----13~-------|

D|------------------------------------------------------------------------------------------|--------------13h14h15-15p13----------15p13-----------------------------------|

A|------------------------------------------------------------------------------------------|13h14h15-------------------------15p13---------15p13--------------------------|

E|------------------------------------------------------------------------------------------|---------------------------------------------------------------------------------------13\|

E|(tap)-6h8h11p8p6h8h11p8p6h8h11p8p6h8h11p8p6h8-13~13~13~------|

B|----------------------------------------------------------------------------------------------------|

G|----------------------------------------------------------------------------------------------------|

D|----------------------------------------------------------------------------------------------------|

A|----------------------------------------------------------------------------------------------------|

E|------------------------------------------------------------------------------------------------13\|

Please tell me if it's different and yeah, you can use this! :D:lol:

Share this post


Link to post
Share on other sites

That G|-7 should be G|-5, the chords are just major barre chords, and you pick the notes in the same order as your tab.

yeah sorry thats what i meant, just to stupid to write it down right. a deaf could hear that :D

Share this post


Link to post
Share on other sites

  • Recently Browsing   0 members

    No registered users viewing this page.



×